ISO-10303-21;
HEADER;
FILE_DESCRIPTION (( 'STEP AP203' ),
    '1' );
FILE_NAME ('BK7-LNPBSC-12.7-633.STEP',
    '2021-01-05T02:01:04',
    ( '' ),
    ( '' ),
    'SwSTEP 2.0',
    'SolidWorks 2020',
    '' );
FILE_SCHEMA (( 'CONFIG_CONTROL_DESIGN' ));
ENDSEC;

DATA;
#1 = CARTESIAN_POINT ( 'NONE',  ( 6.349999999999998757, 6.349999999999998757, 6.349999999999999645 ) ) ;
#2 = VECTOR ( 'NONE', #127, 1000.000000000000114 ) ;
#3 = ORIENTED_EDGE ( 'NONE', *, *, #96, .F. ) ;
#4 = APPROVAL_ROLE ( '' ) ;
#5 = PLANE ( 'NONE',  #23 ) ;
#6 = MECHANICAL_CONTEXT ( 'NONE', #130, 'mechanical' ) ;
#7 = CARTESIAN_POINT ( 'NONE',  ( 6.349999999999999645, -6.350000000000000533, 6.349999999999999645 ) ) ;
#8 = CALENDAR_DATE ( 2021, 5, 1 ) ;
#9 = LINE ( 'NONE', #104, #269 ) ;
#10 = VECTOR ( 'NONE', #175, 1000.000000000000000 ) ;
#11 = PERSON_AND_ORGANIZATION_ROLE ( 'creator' ) ;
#12 = APPROVAL ( #131, 'UNSPECIFIED' ) ;
#13 =( GEOMETRIC_REPRESENTATION_CONTEXT ( 3 ) GLOBAL_UNCERTAINTY_ASSIGNED_CONTEXT ( ( #236 ) ) GLOBAL_UNIT_ASSIGNED_CONTEXT ( ( #105, #182, #84 ) ) REPRESENTATION_CONTEXT ( 'NONE', 'WORKASPACE' ) );
#14 = ADVANCED_FACE ( 'NONE', ( #140 ), #239, .F. ) ;
#15 = DIRECTION ( 'NONE',  ( 0.000000000000000000, 0.000000000000000000, -1.000000000000000000 ) ) ;
#16 = ORIENTED_EDGE ( 'NONE', *, *, #186, .T. ) ;
#17 = PRODUCT_DEFINITION ( 'UNKNOWN', '', #162, #117 ) ;
#18 = ADVANCED_BREP_SHAPE_REPRESENTATION ( 'BK7-LNPBSC-12.7-633', ( #275, #286, #317 ), #13 ) ;
#19 = ORIENTED_EDGE ( 'NONE', *, *, #28, .T. ) ;
#20 = ORIENTED_EDGE ( 'NONE', *, *, #226, .F. ) ;
#21 = ADVANCED_FACE ( 'NONE', ( #122 ), #65, .F. ) ;
#22 = VERTEX_POINT ( 'NONE', #300 ) ;
#23 = AXIS2_PLACEMENT_3D ( 'NONE', #94, #201, #118 ) ;
#24 = AXIS2_PLACEMENT_3D ( 'NONE', #213, #59, #113 ) ;
#25 = ORIENTED_EDGE ( 'NONE', *, *, #191, .F. ) ;
#26 = EDGE_LOOP ( 'NONE', ( #263, #190, #16, #43 ) ) ;
#27 = DIRECTION ( 'NONE',  ( -0.7071067811865475727, 0.7071067811865475727, 0.000000000000000000 ) ) ;
#28 = EDGE_CURVE ( 'NONE', #142, #89, #196, .T. ) ;
#29 = FACE_OUTER_BOUND ( 'NONE', #316, .T. ) ;
#30 = LINE ( 'NONE', #49, #2 ) ;
#31 = DATE_AND_TIME ( #157, #69 ) ;
#32 = CARTESIAN_POINT ( 'NONE',  ( 6.349999999999996980, 6.349999999999996980, 6.349999999999999645 ) ) ;
#33 = PERSON_AND_ORGANIZATION_ROLE ( 'design_owner' ) ;
#34 = LINE ( 'NONE', #184, #265 ) ;
#35 = CALENDAR_DATE ( 2021, 5, 1 ) ;
#36 = DIRECTION ( 'NONE',  ( 0.7071067811865474617, 0.7071067811865474617, 0.000000000000000000 ) ) ;
#37 = CARTESIAN_POINT ( 'NONE',  ( 6.349999999999998757, 6.349999999999998757, -6.349999999999999645 ) ) ;
#38 = LINE ( 'NONE', #185, #114 ) ;
#39 = APPROVAL_PERSON_ORGANIZATION ( #135, #244, #4 ) ;
#40 = DIRECTION ( 'NONE',  ( -0.000000000000000000, -0.000000000000000000, -1.000000000000000000 ) ) ;
#41 = ORIENTED_EDGE ( 'NONE', *, *, #44, .F. ) ;
#42 = EDGE_LOOP ( 'NONE', ( #62, #41, #3 ) ) ;
#43 = ORIENTED_EDGE ( 'NONE', *, *, #160, .T. ) ;
#44 = EDGE_CURVE ( 'NONE', #58, #266, #219, .T. ) ;
#45 = ORIENTED_EDGE ( 'NONE', *, *, #136, .T. ) ;
#46 = EDGE_LOOP ( 'NONE', ( #214, #314, #90, #19 ) ) ;
#47 = SECURITY_CLASSIFICATION ( '', '', #204 ) ;
#48 = DIRECTION ( 'NONE',  ( -2.220446049250312588E-16, 1.000000000000000000, 0.000000000000000000 ) ) ;
#49 = CARTESIAN_POINT ( 'NONE',  ( 6.349999999999998757, 6.349999999999998757, 6.349999999999999645 ) ) ;
#50 = LINE ( 'NONE', #195, #134 ) ;
#51 = DIRECTION ( 'NONE',  ( -0.000000000000000000, 0.000000000000000000, 1.000000000000000000 ) ) ;
#52 = CARTESIAN_POINT ( 'NONE',  ( -6.349999999999999645, -6.350000000000000533, -6.349999999999999645 ) ) ;
#53 = DATE_AND_TIME ( #35, #57 ) ;
#54 = CARTESIAN_POINT ( 'NONE',  ( -6.349999999999998757, -6.349999999999997868, -6.349999999999999645 ) ) ;
#55 = SHAPE_DEFINITION_REPRESENTATION ( #205, #18 ) ;
#56 = LINE ( 'NONE', #7, #276 ) ;
#57 = LOCAL_TIME ( 10, 1, 4.000000000000000000, #283 ) ;
#58 = VERTEX_POINT ( 'NONE', #145 ) ;
#59 = DIRECTION ( 'NONE',  ( 0.000000000000000000, 1.000000000000000000, 0.000000000000000000 ) ) ;
#60 = ADVANCED_FACE ( 'NONE', ( #29 ), #270, .F. ) ;
#61 = ORIENTED_EDGE ( 'NONE', *, *, #44, .T. ) ;
#62 = ORIENTED_EDGE ( 'NONE', *, *, #186, .F. ) ;
#63 = EDGE_LOOP ( 'NONE', ( #241, #267, #193, #164 ) ) ;
#64 = LOCAL_TIME ( 10, 1, 4.000000000000000000, #72 ) ;
#65 = PLANE ( 'NONE',  #174 ) ;
#66 = CARTESIAN_POINT ( 'NONE',  ( 6.349999999999998757, 6.349999999999998757, -6.349999999999999645 ) ) ;
#67 = FACE_OUTER_BOUND ( 'NONE', #42, .T. ) ;
#68 = CC_DESIGN_PERSON_AND_ORGANIZATION_ASSIGNMENT ( #230, #11, ( #162 ) ) ;
#69 = LOCAL_TIME ( 10, 1, 4.000000000000000000, #251 ) ;
#70 = APPROVAL_STATUS ( 'not_yet_approved' ) ;
#71 = DIRECTION ( 'NONE',  ( 6.829619984160658046E-17, -1.000000000000000000, 0.000000000000000000 ) ) ;
#72 = COORDINATED_UNIVERSAL_TIME_OFFSET ( 8, 0, .AHEAD. ) ;
#73 = CARTESIAN_POINT ( 'NONE',  ( -6.350000000000002309, 6.350000000000001421, -6.349999999999999645 ) ) ;
#74 = DATE_TIME_ROLE ( 'classification_date' ) ;
#75 = DIRECTION ( 'NONE',  ( -0.7071067811865475727, -0.7071067811865475727, 0.000000000000000000 ) ) ;
#76 = CC_DESIGN_PERSON_AND_ORGANIZATION_ASSIGNMENT ( #154, #253, ( #47 ) ) ;
#77 = ORIENTED_EDGE ( 'NONE', *, *, #290, .T. ) ;
#78 = COORDINATED_UNIVERSAL_TIME_OFFSET ( 8, 0, .AHEAD. ) ;
#79 = VECTOR ( 'NONE', #163, 1000.000000000000114 ) ;
#80 = CARTESIAN_POINT ( 'NONE',  ( -6.349999999999999645, -6.350000000000000533, 6.349999999999999645 ) ) ;
#81 = CARTESIAN_POINT ( 'NONE',  ( -6.349999999999999645, -6.350000000000000533, 6.349999999999999645 ) ) ;
#82 = ADVANCED_FACE ( 'NONE', ( #67 ), #5, .T. ) ;
#83 = EDGE_CURVE ( 'NONE', #250, #22, #50, .T. ) ;
#84 =( NAMED_UNIT ( * ) SI_UNIT ( $, .STERADIAN. ) SOLID_ANGLE_UNIT ( ) );
#85 = LOCAL_TIME ( 10, 1, 4.000000000000000000, #103 ) ;
#86 = ORIENTED_EDGE ( 'NONE', *, *, #83, .F. ) ;
#87 = ORIENTED_EDGE ( 'NONE', *, *, #240, .T. ) ;
#88 = APPROVAL ( #256, 'UNSPECIFIED' ) ;
#89 = VERTEX_POINT ( 'NONE', #66 ) ;
#90 = ORIENTED_EDGE ( 'NONE', *, *, #136, .F. ) ;
#91 = ORIENTED_EDGE ( 'NONE', *, *, #308, .T. ) ;
#92 = ORIENTED_EDGE ( 'NONE', *, *, #116, .T. ) ;
#93 = CARTESIAN_POINT ( 'NONE',  ( -6.349999999999998757, -6.349999999999997868, 6.349999999999999645 ) ) ;
#94 = CARTESIAN_POINT ( 'NONE',  ( 0.000000000000000000, 0.000000000000000000, 6.349999999999999645 ) ) ;
#95 = CARTESIAN_POINT ( 'NONE',  ( 0.000000000000000000, 0.000000000000000000, -6.349999999999999645 ) ) ;
#96 = EDGE_CURVE ( 'NONE', #167, #58, #278, .T. ) ;
#97 = AXIS2_PLACEMENT_3D ( 'NONE', #32, #150, #101 ) ;
#98 = CARTESIAN_POINT ( 'NONE',  ( -6.349999999999998757, -6.349999999999997868, 6.349999999999999645 ) ) ;
#99 = ORIENTED_EDGE ( 'NONE', *, *, #299, .T. ) ;
#100 = APPROVAL_DATE_TIME ( #224, #88 ) ;
#101 = DIRECTION ( 'NONE',  ( -1.000000000000000000, 2.903408047666378392E-16, 0.000000000000000000 ) ) ;
#102 = APPLICATION_PROTOCOL_DEFINITION ( 'international standard', 'config_control_design', 1994, #247 ) ;
#103 = COORDINATED_UNIVERSAL_TIME_OFFSET ( 8, 0, .AHEAD. ) ;
#104 = CARTESIAN_POINT ( 'NONE',  ( -6.349999999999999645, -6.350000000000000533, 6.349999999999999645 ) ) ;
#105 =( LENGTH_UNIT ( ) NAMED_UNIT ( * ) SI_UNIT ( .MILLI., .METRE. ) );
#106 = ADVANCED_FACE ( 'NONE', ( #173 ), #217, .F. ) ;
#107 = CARTESIAN_POINT ( 'NONE',  ( 0.000000000000000000, 0.000000000000000000, 6.349999999999999645 ) ) ;
#108 = ADVANCED_FACE ( 'NONE', ( #252 ), #220, .F. ) ;
#109 = CARTESIAN_POINT ( 'NONE',  ( 6.349999999999996980, 6.349999999999996980, 6.349999999999999645 ) ) ;
#110 = EDGE_LOOP ( 'NONE', ( #20, #25, #86 ) ) ;
#111 = PRODUCT ( 'BK7-LNPBSC-12.7-633', 'BK7-LNPBSC-12.7-633', '', ( #6 ) ) ;
#112 = EDGE_LOOP ( 'NONE', ( #141, #77, #92 ) ) ;
#113 = DIRECTION ( 'NONE',  ( 0.000000000000000000, -0.000000000000000000, 1.000000000000000000 ) ) ;
#114 = VECTOR ( 'NONE', #15, 1000.000000000000000 ) ;
#115 = ORIENTED_EDGE ( 'NONE', *, *, #194, .T. ) ;
#116 = EDGE_CURVE ( 'NONE', #192, #124, #297, .T. ) ;
#117 = DESIGN_CONTEXT ( 'detailed design', #247, 'design' ) ;
#118 = DIRECTION ( 'NONE',  ( -2.220446049250312588E-16, 1.000000000000000000, 0.000000000000000000 ) ) ;
#119 = LINE ( 'NONE', #248, #126 ) ;
#120 = VECTOR ( 'NONE', #282, 1000.000000000000000 ) ;
#121 = CC_DESIGN_PERSON_AND_ORGANIZATION_ASSIGNMENT ( #200, #155, ( #162 ) ) ;
#122 = FACE_OUTER_BOUND ( 'NONE', #212, .T. ) ;
#123 = DIRECTION ( 'NONE',  ( 0.000000000000000000, 0.000000000000000000, -1.000000000000000000 ) ) ;
#124 = VERTEX_POINT ( 'NONE', #249 ) ;
#125 = APPROVAL_ROLE ( '' ) ;
#126 = VECTOR ( 'NONE', #123, 1000.000000000000000 ) ;
#127 = DIRECTION ( 'NONE',  ( -0.7071067811865474617, -0.7071067811865474617, 0.000000000000000000 ) ) ;
#128 = APPROVAL_PERSON_ORGANIZATION ( #310, #12, #281 ) ;
#129 = CALENDAR_DATE ( 2021, 5, 1 ) ;
#130 = APPLICATION_CONTEXT ( 'configuration controlled 3d designs of mechanical parts and assemblies' ) ;
#131 = APPROVAL_STATUS ( 'not_yet_approved' ) ;
#132 = DIRECTION ( 'NONE',  ( 1.000000000000000000, 0.000000000000000000, 0.000000000000000000 ) ) ;
#133 = DIRECTION ( 'NONE',  ( 0.7071067811865475727, -0.7071067811865475727, 0.000000000000000000 ) ) ;
#134 = VECTOR ( 'NONE', #298, 1000.000000000000000 ) ;
#135 = PERSON_AND_ORGANIZATION ( #198, #215 ) ;
#136 = EDGE_CURVE ( 'NONE', #142, #237, #30, .T. ) ;
#137 = DIRECTION ( 'NONE',  ( -0.000000000000000000, -0.000000000000000000, -1.000000000000000000 ) ) ;
#138 = ORIENTED_EDGE ( 'NONE', *, *, #218, .T. ) ;
#139 = PRODUCT_RELATED_PRODUCT_CATEGORY ( 'detail', '', ( #111 ) ) ;
#140 = FACE_OUTER_BOUND ( 'NONE', #63, .T. ) ;
#141 = ORIENTED_EDGE ( 'NONE', *, *, #187, .T. ) ;
#142 = VERTEX_POINT ( 'NONE', #171 ) ;
#143 = APPROVAL_PERSON_ORGANIZATION ( #176, #88, #125 ) ;
#144 = ADVANCED_FACE ( 'NONE', ( #170 ), #245, .F. ) ;
#145 = CARTESIAN_POINT ( 'NONE',  ( -6.350000000000002309, 6.350000000000001421, 6.349999999999999645 ) ) ;
#146 = FACE_OUTER_BOUND ( 'NONE', #112, .T. ) ;
#147 = CC_DESIGN_PERSON_AND_ORGANIZATION_ASSIGNMENT ( #159, #179, ( #17 ) ) ;
#148 = CARTESIAN_POINT ( 'NONE',  ( 6.349999999999996980, 6.349999999999996980, 6.349999999999999645 ) ) ;
#149 = AXIS2_PLACEMENT_3D ( 'NONE', #262, #133, #36 ) ;
#150 = DIRECTION ( 'NONE',  ( -2.903408047666378392E-16, -1.000000000000000000, 0.000000000000000000 ) ) ;
#151 = ORIENTED_EDGE ( 'NONE', *, *, #160, .F. ) ;
#152 = PERSON_AND_ORGANIZATION ( #198, #215 ) ;
#153 = DIRECTION ( 'NONE',  ( -1.000000000000000000, -6.829619984160658046E-17, 0.000000000000000000 ) ) ;
#154 = PERSON_AND_ORGANIZATION ( #198, #215 ) ;
#155 = PERSON_AND_ORGANIZATION_ROLE ( 'design_supplier' ) ;
#156 = LINE ( 'NONE', #37, #79 ) ;
#157 = CALENDAR_DATE ( 2021, 5, 1 ) ;
#158 = DIRECTION ( 'NONE',  ( -6.829619984160658046E-17, 1.000000000000000000, -0.000000000000000000 ) ) ;
#159 = PERSON_AND_ORGANIZATION ( #198, #215 ) ;
#160 = EDGE_CURVE ( 'NONE', #167, #294, #119, .T. ) ;
#161 = CARTESIAN_POINT ( 'NONE',  ( 6.349999999999996980, 6.349999999999996980, 6.349999999999999645 ) ) ;
#162 = PRODUCT_DEFINITION_FORMATION_WITH_SPECIFIED_SOURCE ( 'ANY', '', #111, .NOT_KNOWN. ) ;
#163 = DIRECTION ( 'NONE',  ( -0.7071067811865474617, -0.7071067811865474617, 0.000000000000000000 ) ) ;
#164 = ORIENTED_EDGE ( 'NONE', *, *, #315, .T. ) ;
#165 = ORIENTED_EDGE ( 'NONE', *, *, #218, .F. ) ;
#166 = VERTEX_POINT ( 'NONE', #321 ) ;
#167 = VERTEX_POINT ( 'NONE', #221 ) ;
#168 = VECTOR ( 'NONE', #309, 999.9999999999998863 ) ;
#169 = VECTOR ( 'NONE', #40, 1000.000000000000000 ) ;
#170 = FACE_OUTER_BOUND ( 'NONE', #26, .T. ) ;
#171 = CARTESIAN_POINT ( 'NONE',  ( 6.349999999999998757, 6.349999999999998757, 6.349999999999999645 ) ) ;
#172 = ADVANCED_FACE ( 'NONE', ( #146 ), #246, .F. ) ;
#173 = FACE_OUTER_BOUND ( 'NONE', #110, .T. ) ;
#174 = AXIS2_PLACEMENT_3D ( 'NONE', #93, #277, #225 ) ;
#175 = DIRECTION ( 'NONE',  ( 1.000000000000000000, -2.903408047666378392E-16, 0.000000000000000000 ) ) ;
#176 = PERSON_AND_ORGANIZATION ( #198, #215 ) ;
#177 = CALENDAR_DATE ( 2021, 5, 1 ) ;
#178 = LINE ( 'NONE', #254, #210 ) ;
#179 = PERSON_AND_ORGANIZATION_ROLE ( 'creator' ) ;
#180 = LINE ( 'NONE', #227, #319 ) ;
#181 = DATE_AND_TIME ( #129, #303 ) ;
#182 =( NAMED_UNIT ( * ) PLANE_ANGLE_UNIT ( ) SI_UNIT ( $, .RADIAN. ) );
#183 = CC_DESIGN_DATE_AND_TIME_ASSIGNMENT ( #31, #306, ( #17 ) ) ;
#184 = CARTESIAN_POINT ( 'NONE',  ( 6.349999999999998757, 6.349999999999998757, 6.349999999999999645 ) ) ;
#185 = CARTESIAN_POINT ( 'NONE',  ( -6.350000000000002309, 6.350000000000001421, 6.349999999999999645 ) ) ;
#186 = EDGE_CURVE ( 'NONE', #266, #167, #312, .T. ) ;
#187 = EDGE_CURVE ( 'NONE', #124, #294, #178, .T. ) ;
#188 = ORIENTED_EDGE ( 'NONE', *, *, #96, .T. ) ;
#189 = AXIS2_PLACEMENT_3D ( 'NONE', #1, #153, #71 ) ;
#190 = ORIENTED_EDGE ( 'NONE', *, *, #240, .F. ) ;
#191 = EDGE_CURVE ( 'NONE', #22, #89, #180, .T. ) ;
#192 = VERTEX_POINT ( 'NONE', #73 ) ;
#193 = ORIENTED_EDGE ( 'NONE', *, *, #308, .F. ) ;
#194 = EDGE_CURVE ( 'NONE', #166, #22, #56, .T. ) ;
#195 = CARTESIAN_POINT ( 'NONE',  ( -6.349999999999999645, -6.350000000000000533, -6.349999999999999645 ) ) ;
#196 = LINE ( 'NONE', #320, #273 ) ;
#197 = DIRECTION ( 'NONE',  ( -0.000000000000000000, -0.000000000000000000, -1.000000000000000000 ) ) ;
#198 = PERSON ( 'UNSPECIFIED', 'UNSPECIFIED', 'UNSPECIFIED', ('UNSPECIFIED'), ('UNSPECIFIED'), ('UNSPECIFIED') ) ;
#199 = CARTESIAN_POINT ( 'NONE',  ( 6.349999999999996980, 6.349999999999996980, -6.349999999999999645 ) ) ;
#200 = PERSON_AND_ORGANIZATION ( #198, #215 ) ;
#201 = DIRECTION ( 'NONE',  ( 0.000000000000000000, 0.000000000000000000, 1.000000000000000000 ) ) ;
#202 = APPLICATION_PROTOCOL_DEFINITION ( 'international standard', 'config_control_design', 1994, #130 ) ;
#203 = DIRECTION ( 'NONE',  ( -2.220446049250312588E-16, 1.000000000000000000, 0.000000000000000000 ) ) ;
#204 = SECURITY_CLASSIFICATION_LEVEL ( 'unclassified' ) ;
#205 = PRODUCT_DEFINITION_SHAPE ( 'NONE', 'NONE',  #17 ) ;
#206 = LINE ( 'NONE', #161, #120 ) ;
#207 = DATE_AND_TIME ( #8, #64 ) ;
#208 = LINE ( 'NONE', #81, #169 ) ;
#209 = CC_DESIGN_DATE_AND_TIME_ASSIGNMENT ( #181, #74, ( #47 ) ) ;
#210 = VECTOR ( 'NONE', #75, 999.9999999999998863 ) ;
#211 = ORIENTED_EDGE ( 'NONE', *, *, #290, .F. ) ;
#212 = EDGE_LOOP ( 'NONE', ( #211, #151, #188, #99 ) ) ;
#213 = CARTESIAN_POINT ( 'NONE',  ( -6.349999999999999645, -6.350000000000000533, 6.349999999999999645 ) ) ;
#214 = ORIENTED_EDGE ( 'NONE', *, *, #226, .T. ) ;
#215 = ORGANIZATION ( 'UNSPECIFIED', 'UNSPECIFIED', '' ) ;
#216 = ORIENTED_EDGE ( 'NONE', *, *, #299, .F. ) ;
#217 = PLANE ( 'NONE',  #280 ) ;
#218 = EDGE_CURVE ( 'NONE', #166, #142, #34, .T. ) ;
#219 = LINE ( 'NONE', #302, #10 ) ;
#220 = PLANE ( 'NONE',  #97 ) ;
#221 = CARTESIAN_POINT ( 'NONE',  ( -6.349999999999998757, -6.349999999999997868, 6.349999999999999645 ) ) ;
#222 = CC_DESIGN_PERSON_AND_ORGANIZATION_ASSIGNMENT ( #152, #33, ( #111 ) ) ;
#223 = ORIENTED_EDGE ( 'NONE', *, *, #116, .F. ) ;
#224 = DATE_AND_TIME ( #177, #85 ) ;
#225 = DIRECTION ( 'NONE',  ( 0.000000000000000000, 0.000000000000000000, 1.000000000000000000 ) ) ;
#226 = EDGE_CURVE ( 'NONE', #89, #250, #156, .T. ) ;
#227 = CARTESIAN_POINT ( 'NONE',  ( 6.349999999999998757, 6.349999999999998757, -6.349999999999999645 ) ) ;
#228 = DIRECTION ( 'NONE',  ( 0.000000000000000000, 0.000000000000000000, 1.000000000000000000 ) ) ;
#229 = CARTESIAN_POINT ( 'NONE',  ( 6.349999999999996980, 6.349999999999996980, 6.349999999999999645 ) ) ;
#230 = PERSON_AND_ORGANIZATION ( #198, #215 ) ;
#231 = DIRECTION ( 'NONE',  ( 1.000000000000000000, 0.000000000000000000, 0.000000000000000000 ) ) ;
#232 = CC_DESIGN_SECURITY_CLASSIFICATION ( #47, ( #162 ) ) ;
#233 = APPROVAL_DATE_TIME ( #207, #244 ) ;
#234 = DIRECTION ( 'NONE',  ( -0.000000000000000000, 0.000000000000000000, 1.000000000000000000 ) ) ;
#235 = ADVANCED_FACE ( 'NONE', ( #307 ), #279, .T. ) ;
#236 = UNCERTAINTY_MEASURE_WITH_UNIT (LENGTH_MEASURE( 1.000000000000000082E-05 ), #105, 'distance_accuracy_value', 'NONE');
#237 = VERTEX_POINT ( 'NONE', #80 ) ;
#238 = CC_DESIGN_APPROVAL ( #88, ( #162 ) ) ;
#239 = PLANE ( 'NONE',  #24 ) ;
#240 = EDGE_CURVE ( 'NONE', #266, #124, #206, .T. ) ;
#241 = ORIENTED_EDGE ( 'NONE', *, *, #83, .T. ) ;
#242 = VECTOR ( 'NONE', #48, 1000.000000000000000 ) ;
#243 = EDGE_LOOP ( 'NONE', ( #223, #216, #61, #87 ) ) ;
#244 = APPROVAL ( #70, 'UNSPECIFIED' ) ;
#245 = PLANE ( 'NONE',  #268 ) ;
#246 = PLANE ( 'NONE',  #313 ) ;
#247 = APPLICATION_CONTEXT ( 'configuration controlled 3d designs of mechanical parts and assemblies' ) ;
#248 = CARTESIAN_POINT ( 'NONE',  ( -6.349999999999998757, -6.349999999999997868, 6.349999999999999645 ) ) ;
#249 = CARTESIAN_POINT ( 'NONE',  ( 6.349999999999996980, 6.349999999999996980, -6.349999999999999645 ) ) ;
#250 = VERTEX_POINT ( 'NONE', #52 ) ;
#251 = COORDINATED_UNIVERSAL_TIME_OFFSET ( 8, 0, .AHEAD. ) ;
#252 = FACE_OUTER_BOUND ( 'NONE', #243, .T. ) ;
#253 = PERSON_AND_ORGANIZATION_ROLE ( 'classification_officer' ) ;
#254 = CARTESIAN_POINT ( 'NONE',  ( 6.349999999999996980, 6.349999999999996980, -6.349999999999999645 ) ) ;
#255 = CC_DESIGN_APPROVAL ( #244, ( #17 ) ) ;
#256 = APPROVAL_STATUS ( 'not_yet_approved' ) ;
#257 = PLANE ( 'NONE',  #149 ) ;
#258 = APPROVAL_DATE_TIME ( #53, #12 ) ;
#259 = DIRECTION ( 'NONE',  ( -6.829619984160658046E-17, 1.000000000000000000, -0.000000000000000000 ) ) ;
#260 = DIRECTION ( 'NONE',  ( 1.000000000000000000, 0.000000000000000000, 0.000000000000000000 ) ) ;
#261 = LINE ( 'NONE', #54, #295 ) ;
#262 = CARTESIAN_POINT ( 'NONE',  ( 6.349999999999998757, 6.349999999999998757, 6.349999999999999645 ) ) ;
#263 = ORIENTED_EDGE ( 'NONE', *, *, #187, .F. ) ;
#264 = ORIENTED_EDGE ( 'NONE', *, *, #191, .T. ) ;
#265 = VECTOR ( 'NONE', #259, 1000.000000000000000 ) ;
#266 = VERTEX_POINT ( 'NONE', #229 ) ;
#267 = ORIENTED_EDGE ( 'NONE', *, *, #194, .F. ) ;
#268 = AXIS2_PLACEMENT_3D ( 'NONE', #148, #27, #271 ) ;
#269 = VECTOR ( 'NONE', #231, 1000.000000000000000 ) ;
#270 = PLANE ( 'NONE',  #189 ) ;
#271 = DIRECTION ( 'NONE',  ( 0.7071067811865475727, 0.7071067811865475727, 0.000000000000000000 ) ) ;
#272 = DIRECTION ( 'NONE',  ( 1.000000000000000000, 0.000000000000000000, 0.000000000000000000 ) ) ;
#273 = VECTOR ( 'NONE', #197, 1000.000000000000000 ) ;
#274 = ADVANCED_FACE ( 'NONE', ( #311 ), #257, .F. ) ;
#275 = MANIFOLD_SOLID_BREP ( 'Í¹Ì¨-À', #301 ) ;
#276 = VECTOR ( 'NONE', #137, 1000.000000000000000 ) ;
#277 = DIRECTION ( 'NONE',  ( 1.000000000000000000, -2.220446049250312588E-16, 0.000000000000000000 ) ) ;
#278 = LINE ( 'NONE', #98, #242 ) ;
#279 = PLANE ( 'NONE',  #289 ) ;
#280 = AXIS2_PLACEMENT_3D ( 'NONE', #305, #51, #272 ) ;
#281 = APPROVAL_ROLE ( '' ) ;
#282 = DIRECTION ( 'NONE',  ( 0.000000000000000000, 0.000000000000000000, -1.000000000000000000 ) ) ;
#283 = COORDINATED_UNIVERSAL_TIME_OFFSET ( 8, 0, .AHEAD. ) ;
#284 = DIRECTION ( 'NONE',  ( 0.000000000000000000, 0.000000000000000000, 1.000000000000000000 ) ) ;
#285 = CARTESIAN_POINT ( 'NONE',  ( -6.349999999999998757, -6.349999999999997868, -6.349999999999999645 ) ) ;
#286 = MANIFOLD_SOLID_BREP ( '¾µÏ', #292 ) ;
#287 = VECTOR ( 'NONE', #318, 1000.000000000000000 ) ;
#288 = DIRECTION ( 'NONE',  ( -2.220446049250312588E-16, 1.000000000000000000, 0.000000000000000000 ) ) ;
#289 = AXIS2_PLACEMENT_3D ( 'NONE', #107, #234, #132 ) ;
#290 = EDGE_CURVE ( 'NONE', #294, #192, #261, .T. ) ;
#291 = EDGE_LOOP ( 'NONE', ( #45, #91, #138 ) ) ;
#292 = CLOSED_SHELL ( 'NONE', ( #144, #21, #108, #82, #172 ) ) ;
#293 = ORIENTED_EDGE ( 'NONE', *, *, #28, .F. ) ;
#294 = VERTEX_POINT ( 'NONE', #285 ) ;
#295 = VECTOR ( 'NONE', #288, 1000.000000000000000 ) ;
#296 = CC_DESIGN_APPROVAL ( #12, ( #47 ) ) ;
#297 = LINE ( 'NONE', #199, #287 ) ;
#298 = DIRECTION ( 'NONE',  ( 1.000000000000000000, 0.000000000000000000, 0.000000000000000000 ) ) ;
#299 = EDGE_CURVE ( 'NONE', #58, #192, #38, .T. ) ;
#300 = CARTESIAN_POINT ( 'NONE',  ( 6.349999999999999645, -6.350000000000000533, -6.349999999999999645 ) ) ;
#301 = CLOSED_SHELL ( 'NONE', ( #274, #14, #60, #235, #106 ) ) ;
#302 = CARTESIAN_POINT ( 'NONE',  ( 6.349999999999996980, 6.349999999999996980, 6.349999999999999645 ) ) ;
#303 = LOCAL_TIME ( 10, 1, 4.000000000000000000, #78 ) ;
#304 = CARTESIAN_POINT ( 'NONE',  ( 0.000000000000000000, 0.000000000000000000, 0.000000000000000000 ) ) ;
#305 = CARTESIAN_POINT ( 'NONE',  ( 0.000000000000000000, 0.000000000000000000, -6.349999999999999645 ) ) ;
#306 = DATE_TIME_ROLE ( 'creation_date' ) ;
#307 = FACE_OUTER_BOUND ( 'NONE', #291, .T. ) ;
#308 = EDGE_CURVE ( 'NONE', #237, #166, #9, .T. ) ;
#309 = DIRECTION ( 'NONE',  ( -0.7071067811865475727, -0.7071067811865475727, 0.000000000000000000 ) ) ;
#310 = PERSON_AND_ORGANIZATION ( #198, #215 ) ;
#311 = FACE_OUTER_BOUND ( 'NONE', #46, .T. ) ;
#312 = LINE ( 'NONE', #109, #168 ) ;
#313 = AXIS2_PLACEMENT_3D ( 'NONE', #95, #284, #203 ) ;
#314 = ORIENTED_EDGE ( 'NONE', *, *, #315, .F. ) ;
#315 = EDGE_CURVE ( 'NONE', #237, #250, #208, .T. ) ;
#316 = EDGE_LOOP ( 'NONE', ( #264, #293, #165, #115 ) ) ;
#317 = AXIS2_PLACEMENT_3D ( 'NONE', #304, #228, #260 ) ;
#318 = DIRECTION ( 'NONE',  ( 1.000000000000000000, -2.903408047666378392E-16, 0.000000000000000000 ) ) ;
#319 = VECTOR ( 'NONE', #158, 1000.000000000000000 ) ;
#320 = CARTESIAN_POINT ( 'NONE',  ( 6.349999999999998757, 6.349999999999998757, 6.349999999999999645 ) ) ;
#321 = CARTESIAN_POINT ( 'NONE',  ( 6.349999999999999645, -6.350000000000000533, 6.349999999999999645 ) ) ;
ENDSEC;
END-ISO-10303-21;
